  0
SECTION
  2
HEADER
  9
$ACADVER
  1
AC1009
  9
$INSBASE
 10
0.0
 20
0.0
 30
0.0
  9
$EXTMIN
 10
-0.8110761353166253
 20
-2.2541001073792168
 30
0.0
  9
$EXTMAX
 10
6.6406632916956534
 20
10.06348629070327
 30
0.0
  9
$LIMMIN
 10
0.0
 20
0.0
  9
$LIMMAX
 10
12.0
 20
9.0
  9
$ORTHOMODE
 70
     1
  9
$REGENMODE
 70
     1
  9
$FILLMODE
 70
     1
  9
$QTEXTMODE
 70
     0
  9
$MIRRTEXT
 70
     1
  9
$DRAGMODE
 70
     2
  9
$LTSCALE
 40
0.5
  9
$OSMODE
 70
   111
  9
$ATTMODE
 70
     1
  9
$TEXTSIZE
 40
0.2
  9
$TRACEWID
 40
0.05
  9
$TEXTSTYLE
  7
ARIAL
  9
$CLAYER
  8
ADAPTER
  9
$CELTYPE
  6
BYLAYER
  9
$CECOLOR
 62
   256
  9
$DIMSCALE
 40
1.0
  9
$DIMASZ
 40
0.125
  9
$DIMEXO
 40
0.0625
  9
$DIMDLI
 40
0.25
  9
$DIMRND
 40
0.0
  9
$DIMDLE
 40
0.0
  9
$DIMEXE
 40
0.0625
  9
$DIMTP
 40
0.0
  9
$DIMTM
 40
0.0
  9
$DIMTXT
 40
0.125
  9
$DIMCEN
 40
0.09
  9
$DIMTSZ
 40
0.0
  9
$DIMTOL
 70
     0
  9
$DIMLIM
 70
     0
  9
$DIMTIH
 70
     1
  9
$DIMTOH
 70
     1
  9
$DIMSE1
 70
     0
  9
$DIMSE2
 70
     0
  9
$DIMTAD
 70
     0
  9
$DIMZIN
 70
     4
  9
$DIMBLK
  1

  9
$DIMASO
 70
     1
  9
$DIMSHO
 70
     1
  9
$DIMPOST
  1

  9
$DIMAPOST
  1

  9
$DIMALT
 70
     0
  9
$DIMALTD
 70
     2
  9
$DIMALTF
 40
25.399999999999999
  9
$DIMLFAC
 40
1.0
  9
$DIMTOFL
 70
     0
  9
$DIMTVP
 40
0.0
  9
$DIMTIX
 70
     0
  9
$DIMSOXD
 70
     0
  9
$DIMSAH
 70
     0
  9
$DIMBLK1
  1

  9
$DIMBLK2
  1

  9
$DIMSTYLE
  2
STANDARD
  9
$DIMCLRD
 70
   256
  9
$DIMCLRE
 70
   256
  9
$DIMCLRT
 70
   256
  9
$DIMTFAC
 40
1.0
  9
$DIMGAP
 40
0.09
  9
$LUNITS
 70
     2
  9
$LUPREC
 70
     4
  9
$SKETCHINC
 40
0.1
  9
$FILLETRAD
 40
0.5
  9
$AUNITS
 70
     0
  9
$AUPREC
 70
     0
  9
$MENU
  1
.
  9
$ELEVATION
 40
0.0
  9
$PELEVATION
 40
0.0
  9
$THICKNESS
 40
0.0
  9
$LIMCHECK
 70
     0
  9
$BLIPMODE
 70
     0
  9
$CHAMFERA
 40
0.0
  9
$CHAMFERB
 40
0.0
  9
$SKPOLY
 70
     0
  9
$TDCREATE
 40
2452392.3517971062
  9
$TDUPDATE
 40
2452554.4566971059
  9
$TDINDWG
 40
0.2922346065
  9
$TDUSRTIMER
 40
0.2922320602
  9
$USRTIMER
 70
     1
  9
$ANGBASE
 50
0.0
  9
$ANGDIR
 70
     0
  9
$PDMODE
 70
     3
  9
$PDSIZE
 40
0.0
  9
$PLINEWID
 40
0.0
  9
$COORDS
 70
     2
  9
$SPLFRAME
 70
     0
  9
$SPLINETYPE
 70
     6
  9
$SPLINESEGS
 70
     8
  9
$ATTDIA
 70
     0
  9
$ATTREQ
 70
     1
  9
$HANDLING
 70
  4097
  9
$HANDSEED
  5
F55
  9
$SURFTAB1
 70
     6
  9
$SURFTAB2
 70
     6
  9
$SURFTYPE
 70
     6
  9
$SURFU
 70
     6
  9
$SURFV
 70
     6
  9
$UCSNAME
  2

  9
$UCSORG
 10
0.0
 20
0.0
 30
0.0
  9
$UCSXDIR
 10
1.0
 20
0.0
 30
0.0
  9
$UCSYDIR
 10
0.0
 20
1.0
 30
0.0
  9
$PUCSNAME
  2

  9
$PUCSORG
 10
0.0
 20
0.0
 30
0.0
  9
$PUCSXDIR
 10
1.0
 20
0.0
 30
0.0
  9
$PUCSYDIR
 10
0.0
 20
1.0
 30
0.0
  9
$USERI1
 70
     0
  9
$USERI2
 70
     0
  9
$USERI3
 70
     0
  9
$USERI4
 70
     0
  9
$USERI5
 70
     0
  9
$USERR1
 40
1.0
  9
$USERR2
 40
25.399999999999999
  9
$USERR3
 40
0.0
  9
$USERR4
 40
0.0
  9
$USERR5
 40
0.0
  9
$WORLDVIEW
 70
     1
  9
$SHADEDGE
 70
     3
  9
$SHADEDIF
 70
    70
  9
$TILEMODE
 70
     1
  9
$MAXACTVP
 70
    48
  9
$PLIMCHECK
 70
     0
  9
$PEXTMIN
 10
1.0000000000000000E+020
 20
1.0000000000000000E+020
 30
1.0000000000000000E+020
  9
$PEXTMAX
 10
-1.0000000000000000E+020
 20
-1.0000000000000000E+020
 30
-1.0000000000000000E+020
  9
$PLIMMIN
 10
0.0
 20
0.0
  9
$PLIMMAX
 10
12.0
 20
9.0
  9
$UNITMODE
 70
     0
  9
$VISRETAIN
 70
     1
  9
$PLINEGEN
 70
     0
  9
$PSLTSCALE
 70
     1
  0
ENDSEC
  0
SECTION
  2
TABLES
  0
TABLE
  2
VPORT
 70
     2
  0
VPORT
  2
*ACTIVE
 70
     0
 10
0.0
 20
0.0
 11
1.0
 21
1.0
 12
2.9147420468601628
 22
3.9042529402090098
 13
0.0
 23
0.0
 14
0.5
 24
0.5
 15
0.5
 25
0.5
 16
0.0
 26
0.0
 36
1.0
 17
0.0
 27
0.0
 37
0.0
 40
12.65061986473768
 41
1.3665594855305461
 42
50.0
 43
0.0
 44
0.0
 50
0.0
 51
0.0
 71
     0
 72
   100
 73
     1
 74
     2
 75
     0
 76
     0
 77
     0
 78
     0
  0
ENDTAB
  0
TABLE
  2
LTYPE
 70
     3
  0
LTYPE
  2
CONTINUOUS
 70
     0
  3
Solid line
 72
    65
 73
     0
 40
0.0
  0
LTYPE
  2
CENTER
 70
     0
  3
Center ____ _ ____ _ ____ _ ____ _ ____ _ ____
 72
    65
 73
     4
 40
2.0
 49
1.25
 49
-0.25
 49
0.25
 49
-0.25
  0
LTYPE
  2
HIDDEN
 70
     0
  3
Hidden __ __ __ __ __ __ __ __ __ __ __ __ __ _
 72
    65
 73
     2
 40
0.375
 49
0.25
 49
-0.125
  0
ENDTAB
  0
TABLE
  2
LAYER
 70
     5
  0
LAYER
  2
0
 70
     0
 62
     7
  6
CONTINUOUS
  0
LAYER
  2
CENTERLINE
 70
     0
 62
     1
  6
CENTER
  0
LAYER
  2
2-7
 70
     0
 62
     2
  6
CONTINUOUS
  0
LAYER
  2
ADAPTER
 70
     0
 62
     3
  6
CONTINUOUS
  0
LAYER
  2
DRIVE_TANG
 70
     0
 62
     4
  6
CONTINUOUS
  0
ENDTAB
  0
TABLE
  2
STYLE
 70
     2
  0
STYLE
  2
STANDARD
 70
     0
 40
0.0
 41
1.0
 50
0.0
 71
     0
 42
0.2
  3
txt
  4

  0
STYLE
  2
ARIAL
 70
     0
 40
0.0
 41
1.0
 50
0.0
 71
     0
 42
0.2
  3
txt
  4

  0
ENDTAB
  0
TABLE
  2
VIEW
 70
     0
  0
ENDTAB
  0
TABLE
  2
UCS
 70
     0
  0
ENDTAB
  0
TABLE
  2
APPID
 70
     1
  0
APPID
  2
ACAD
 70
     0
  0
ENDTAB
  0
TABLE
  2
DIMSTYLE
 70
     1
  0
DIMSTYLE
  2
STANDARD
 70
     0
  3

  4

  5

  6

  7

 40
1.0
 41
0.125
 42
0.0625
 43
0.25
 44
0.0625
 45
0.0
 46
0.0
 47
0.0
 48
0.0
140
0.125
141
0.09
142
0.0
143
25.399999999999999
144
1.0
145
0.0
146
1.0
147
0.09
 71
     0
 72
     0
 73
     1
 74
     1
 75
     0
 76
     0
 77
     0
 78
     4
170
     0
171
     2
172
     0
173
     0
174
     0
175
     0
176
   256
177
   256
178
   256
  0
ENDTAB
  0
ENDSEC
  0
SECTION
  2
BLOCKS
  0
BLOCK
  8
0
  2
$MODEL_SPACE
 70
     0
 10
0.0
 20
0.0
 30
0.0
  3
$MODEL_SPACE
  1

  0
ENDBLK
  5
21
  8
0
  0
BLOCK
 67
     1
  8
0
  2
$PAPER_SPACE
 70
     0
 10
0.0
 20
0.0
 30
0.0
  3
$PAPER_SPACE
  1

  0
ENDBLK
  5
1D
 67
     1
  8
0
  0
ENDSEC
  0
SECTION
  2
ENTITIES
  0
LINE
  5
75
  8
2-7
 10
1.062751484221504
 20
0.3285771406207823
 30
0.0
 11
4.4044810365690577
 21
0.3285771406207821
 31
0.0
  0
LINE
  5
79
  8
CENTERLINE
 10
-0.219139739604718
 20
-0.7934701393792182
 30
0.0
 11
5.6863722603952809
 21
-0.7934701393792182
 31
0.0
  0
LINE
  5
CE
  8
2-7
 10
0.7651122603952806
 20
3.7501002619032739
 30
0.0
 11
4.7021202603952812
 21
3.7501002619032748
 31
0.0
  0
LINE
  5
CF
  8
2-7
 10
0.7651122603952806
 20
7.323328722703276
 30
0.0
 11
4.7021202603952812
 21
7.323328722703276
 31
0.0
  0
POLYLINE
  5
11B
  8
2-7
 66
     1
 10
0.0
 20
0.0
 30
0.0
 70
     1
  0
VERTEX
  5
F40
  8
2-7
 10
1.74207157899348
 20
-0.5592181633792178
 30
0.0
  0
VERTEX
  5
F41
  8
2-7
 10
1.6068261375916779
 20
-0.7934701393792178
 30
0.0
  0
VERTEX
  5
F42
  8
2-7
 10
1.74207157899348
 20
-1.0277221153792171
 30
0.0
  0
VERTEX
  5
F43
  8
2-7
 10
2.0125624617970832
 20
-1.0277221153792171
 30
0.0
  0
VERTEX
  5
F44
  8
2-7
 10
2.1478079031988848
 20
-0.7934701393792182
 30
0.0
  0
VERTEX
  5
F45
  8
2-7
 10
2.0125624617970841
 20
-0.5592181633792182
 30
0.0
  0
SEQEND
  5
F46
  8
2-7
  0
CIRCLE
  5
11C
  8
2-7
 10
1.8773170203952809
 20
-0.7934701393792178
 30
0.0
 40
0.217519692
  0
LINE
  5
18B
  8
ADAPTER
 10
0.7651122603952806
 20
7.7233287355032756
 30
0.0
 11
4.7021202603952821
 21
7.7233287355032791
 31
0.0
  0
LINE
  5
1D3
  8
ADAPTER
 10
1.2729862923952799
 20
10.06348629070327
 30
0.0
 11
4.1942462283952811
 21
10.06348629070327
 31
0.0
  0
LINE
  5
1D5
  8
ADAPTER
 10
1.2729862923952799
 20
10.06348629070327
 30
0.0
 11
1.2729862923952799
 21
7.7233287355032774
 31
0.0
  0
LINE
  5
1D6
  8
ADAPTER
 10
4.1942462283952811
 20
10.06348629070327
 30
0.0
 11
4.1942462283952811
 21
9.9650610907032782
 31
0.0
  0
LINE
  5
1D7
  8
ADAPTER
 10
3.6485769195952811
 20
9.9650610907032817
 30
0.0
 11
4.6328289195952808
 21
9.9650610907032764
 31
0.0
  0
LINE
  5
1D8
  8
ADAPTER
 10
4.6328289195952808
 20
9.9650610907032764
 30
0.0
 11
4.6328289195952808
 21
8.636320890703276
 31
0.0
  0
LINE
  5
1D9
  8
ADAPTER
 10
4.6328289195952808
 20
8.636320890703276
 30
0.0
 11
3.6485769195952811
 21
8.636320890703276
 31
0.0
  0
LINE
  5
1DA
  8
ADAPTER
  6
HIDDEN
 10
3.6485769195952811
 20
9.9650610907032764
 30
0.0
 11
3.6485769195952811
 21
8.636320890703276
 31
0.0
  0
LINE
  5
1DB
  8
ADAPTER
 10
4.1942462283952811
 20
8.636320890703276
 30
0.0
 11
4.1942462283952811
 21
7.7233287355032774
 31
0.0
  0
CIRCLE
  5
1DC
  8
ADAPTER
 10
4.3403800913392798
 20
9.3006909907032771
 30
0.0
 40
0.219347573948256
  0
POLYLINE
  5
1DD
  8
ADAPTER
 66
     1
 10
0.0
 20
0.0
 30
0.0
 70
     1
  0
VERTEX
  5
F47
  8
ADAPTER
 10
4.2039981427153092
 20
9.5369114549552432
 30
0.0
  0
VERTEX
  5
F48
  8
ADAPTER
 10
4.0676161940913369
 20
9.3006909907032771
 30
0.0
  0
VERTEX
  5
F49
  8
ADAPTER
 10
4.2039981427153092
 20
9.0644705264513092
 30
0.0
  0
VERTEX
  5
F4A
  8
ADAPTER
 10
4.4767620399632531
 20
9.0644705264513092
 30
0.0
  0
VERTEX
  5
F4B
  8
ADAPTER
 10
4.6131439885872254
 20
9.3006909907032771
 30
0.0
  0
VERTEX
  5
F4C
  8
ADAPTER
 10
4.4767620399632531
 20
9.5369114549552432
 30
0.0
  0
SEQEND
  5
F4D
  8
ADAPTER
  0
LINE
  5
225
  8
ADAPTER
 10
0.7651122603952804
 20
7.3233287227032777
 30
0.0
 11
4.7021202603952821
 21
7.3233287227032777
 31
0.0
  0
LINE
  5
36A
  8
2-7
  6
HIDDEN
 10
2.5367658603952812
 20
7.4020688827032757
 30
0.0
 11
2.5367658603952812
 21
7.7957696827032761
 31
0.0
  0
LINE
  5
36B
  8
2-7
  6
HIDDEN
 10
2.9304666603952811
 20
7.7957696827032761
 30
0.0
 11
2.9304666603952811
 21
7.4020688827032757
 31
0.0
  0
LINE
  5
36C
  8
2-7
  6
HIDDEN
 10
2.1824351403952811
 20
7.7957696827032761
 30
0.0
 11
2.1824351403952811
 21
7.3233287227032768
 31
0.0
  0
LINE
  5
36D
  8
2-7
  6
HIDDEN
 10
3.2847973803952808
 20
7.7957696827032761
 30
0.0
 11
3.2847973803952808
 21
7.3233287227032777
 31
0.0
  0
LINE
  5
36E
  8
2-7
  6
HIDDEN
 10
2.9304666603952811
 20
7.4020688827032757
 30
0.0
 11
2.5367658603952812
 21
7.4020688827032757
 31
0.0
  0
LINE
  5
36F
  8
2-7
  6
HIDDEN
 10
2.1824351403952811
 20
7.7957696827032761
 30
0.0
 11
2.5367658603952812
 21
7.7957696827032761
 31
0.0
  0
LINE
  5
370
  8
2-7
  6
HIDDEN
 10
2.9304666603952811
 20
7.7957696827032761
 30
0.0
 11
3.2847973803952808
 21
7.7957696827032761
 31
0.0
  0
LINE
  5
43C
  8
DRIVE_TANG
  6
HIDDEN
 10
2.191096557995281
 20
8.9871083035032768
 30
0.0
 11
3.2761359627952809
 21
8.9871083035032768
 31
0.0
  0
LINE
  5
43D
  8
DRIVE_TANG
  6
HIDDEN
 10
3.2761359627952809
 20
8.9871083035032768
 30
0.0
 11
3.2761359627952809
 21
7.8189980299032769
 31
0.0
  0
LINE
  5
43F
  8
DRIVE_TANG
  6
HIDDEN
 10
2.191096557995281
 20
8.9871083035032768
 30
0.0
 11
2.191096557995281
 21
7.8189980299032769
 31
0.0
  0
LINE
  5
440
  8
DRIVE_TANG
  6
HIDDEN
 10
2.191096557995281
 20
7.8189980299032769
 30
0.0
 11
2.5367658603952812
 21
7.8189980299032769
 31
0.0
  0
LINE
  5
95A
  8
2-7
  6
HIDDEN
 10
4.4044810365690594
 20
3.7501002619032762
 30
0.0
 11
4.4044810365690577
 21
7.3233287227032777
 31
0.0
  0
LINE
  5
95B
  8
2-7
 10
4.7021202603952821
 20
3.7501002619032762
 30
0.0
 11
4.7021202603952821
 21
7.3233287227032768
 31
0.0
  0
CIRCLE
  5
A3C
  8
2-7
 10
2.4678682203952809
 20
-0.7934701393792178
 30
0.0
 40
0.273622056
  0
CIRCLE
  5
A3D
  8
2-7
 10
1.2867658203952821
 20
-0.7934701393792178
 30
0.0
 40
0.273622056
  0
CIRCLE
  5
A3F
  8
2-7
 10
1.8773170203952809
 20
-0.7934701393792178
 30
0.0
 40
0.8641732559999997
  0
LINE
  5
A49
  8
2-7
 10
1.062751484221504
 20
-1.9155174193792179
 30
0.0
 11
4.4044810365690577
 21
-1.9155174193792179
 31
0.0
  0
ARC
  5
A4A
  8
2-7
 10
2.4383406603952809
 20
-0.7934701393792178
 30
0.0
 40
2.263779599999999
 50
330.28723537916392
 51
29.712764620836001
  0
LINE
  5
A52
  8
2-7
 10
2.7257422443952808
 20
2.953249842703277
 30
0.0
 11
4.4540887563952811
 21
2.9532498427032752
 31
0.0
  0
LINE
  5
A53
  8
2-7
 10
3.319424617591678
 20
2.7039388111032761
 30
0.0
 11
3.8604063831988848
 21
2.7039388111032761
 31
0.0
  0
LINE
  5
A54
  8
2-7
 10
3.8670992967988851
 20
2.9415372439032761
 30
0.0
 11
3.3127317039916782
 21
2.9415372439032761
 31
0.0
  0
ARC
  5
A55
  8
2-7
 10
3.5899155003952821
 20
2.7213682736032752
 30
0.0
 40
0.2182168704999997
 50
184.5812200852769
 51
355.41877991472307
  0
LINE
  5
A56
  8
2-7
 10
4.4540887563952811
 20
2.9532498427032752
 30
0.0
 11
4.4540887563952811
 21
3.7501002619032762
 31
0.0
  0
LINE
  5
A57
  8
2-7
 10
3.8604063831988848
 20
2.7039388111032761
 30
0.0
 11
3.8604063831988848
 21
2.9415372439032761
 31
0.0
  0
LINE
  5
A58
  8
2-7
 10
3.8670992967988851
 20
2.9415372439032761
 30
0.0
 11
3.8670992967988851
 21
2.9532498427032761
 31
0.0
  0
LINE
  5
A59
  8
2-7
 10
3.7251609417970828
 20
2.7039388111032761
 30
0.0
 11
3.7251609417970828
 21
2.9415372439032761
 31
0.0
  0
LINE
  5
A5A
  8
2-7
 10
3.45467005899348
 20
2.7039388111032761
 30
0.0
 11
3.45467005899348
 21
2.9415372439032761
 31
0.0
  0
LINE
  5
A5B
  8
2-7
 10
3.319424617591678
 20
2.7039388111032761
 30
0.0
 11
3.319424617591678
 21
2.9415372439032761
 31
0.0
  0
LINE
  5
A5C
  8
2-7
 10
3.3127317039916782
 20
2.9415372439032761
 30
0.0
 11
3.3127317039916782
 21
2.9532498427032761
 31
0.0
  0
LINE
  5
A5D
  8
2-7
 10
2.7257422443952808
 20
2.953249842703277
 30
0.0
 11
2.7257422443952808
 21
3.7501002619032748
 31
0.0
  0
LINE
  5
A5E
  8
2-7
 10
2.7257422443952808
 20
2.9532498427032761
 30
0.0
 11
2.7257422443952808
 21
3.7501002619032762
 31
0.0
  0
LINE
  5
A5F
  8
2-7
 10
3.2729863563952821
 20
1.575297042703276
 30
0.0
 11
3.2729863563952821
 21
2.953249842703277
 31
0.0
  0
LINE
  5
A60
  8
2-7
 10
3.2729863563952821
 20
1.575297042703276
 30
0.0
 11
2.7257422443952808
 21
1.575297042703276
 31
0.0
  0
LINE
  5
A61
  8
2-7
 10
2.7257422443952808
 20
1.575297042703276
 30
0.0
 11
2.7257422443952808
 21
2.953249842703277
 31
0.0
  0
POLYLINE
  5
C3F
  8
2-7
 66
     1
 10
0.0
 20
0.0
 30
0.0
 70
     1
  0
VERTEX
  5
F4E
  8
2-7
 10
3.7251609417970828
 20
-0.5592181633792178
 30
0.0
  0
VERTEX
  5
F4F
  8
2-7
 10
3.8604063831988848
 20
-0.7934701393792178
 30
0.0
  0
VERTEX
  5
F50
  8
2-7
 10
3.7251609417970828
 20
-1.0277221153792171
 30
0.0
  0
VERTEX
  5
F51
  8
2-7
 10
3.45467005899348
 20
-1.0277221153792171
 30
0.0
  0
VERTEX
  5
F52
  8
2-7
 10
3.319424617591678
 20
-0.7934701393792182
 30
0.0
  0
VERTEX
  5
F53
  8
2-7
 10
3.4546700589934791
 20
-0.5592181633792182
 30
0.0
  0
SEQEND
  5
F54
  8
2-7
  0
CIRCLE
  5
C40
  8
2-7
 10
3.5899155003952821
 20
-0.7934701393792178
 30
0.0
 40
0.8641732559999997
  0
CIRCLE
  5
C41
  8
2-7
 10
4.1804667003952822
 20
-0.7934701393792178
 30
0.0
 40
0.273622056
  0
CIRCLE
  5
C42
  8
2-7
 10
2.999364300395281
 20
-0.7934701393792178
 30
0.0
 40
0.273622056
  0
CIRCLE
  5
C43
  8
2-7
 10
3.5899155003952821
 20
-0.7934701393792178
 30
0.0
 40
0.217519692
  0
ARC
  5
C46
  8
2-7
 10
3.028891860395281
 20
-0.7934701393792178
 30
0.0
 40
2.263779599999999
 50
150.28723537916389
 51
209.712764620836
  0
LINE
  5
C47
  8
2-7
 10
0.7651122603952807
 20
3.7501002619032762
 30
0.0
 11
0.7651122603952807
 21
7.3233287227032768
 31
0.0
  0
LINE
  5
C48
  8
2-7
  6
HIDDEN
 10
1.0627514842215029
 20
3.7501002619032762
 30
0.0
 11
1.062751484221504
 21
7.3233287227032777
 31
0.0
  0
LINE
  5
C49
  8
2-7
 10
2.7414902763952789
 20
2.953249842703277
 30
0.0
 11
1.0131437643952801
 21
2.9532498427032752
 31
0.0
  0
LINE
  5
C4A
  8
2-7
 10
2.1942461643952789
 20
1.575297042703276
 30
0.0
 11
2.7414902763952789
 21
1.575297042703276
 31
0.0
  0
LINE
  5
C4B
  8
2-7
 10
2.7414902763952789
 20
1.575297042703276
 30
0.0
 11
2.7414902763952789
 21
2.953249842703277
 31
0.0
  0
LINE
  5
C4C
  8
2-7
 10
2.7414902763952789
 20
2.953249842703277
 30
0.0
 11
2.7414902763952789
 21
3.7501002619032748
 31
0.0
  0
LINE
  5
C4D
  8
2-7
 10
2.7414902763952789
 20
2.9532498427032761
 30
0.0
 11
2.7414902763952789
 21
3.7501002619032762
 31
0.0
  0
LINE
  5
C4E
  8
2-7
 10
2.1942461643952789
 20
1.575297042703276
 30
0.0
 11
2.1942461643952789
 21
2.953249842703277
 31
0.0
  0
LINE
  5
C4F
  8
2-7
 10
2.147807903198883
 20
2.7039388111032761
 30
0.0
 11
1.606826137591675
 21
2.7039388111032761
 31
0.0
  0
LINE
  5
C50
  8
2-7
 10
1.6001332239916759
 20
2.9415372439032761
 30
0.0
 11
2.1545008167988828
 21
2.9415372439032761
 31
0.0
  0
ARC
  5
C51
  8
2-7
 10
1.8773170203952789
 20
2.7213682736032752
 30
0.0
 40
0.2182168704999997
 50
184.5812200852769
 51
355.41877991472302
  0
LINE
  5
C52
  8
2-7
 10
2.147807903198883
 20
2.7039388111032761
 30
0.0
 11
2.147807903198883
 21
2.9415372439032761
 31
0.0
  0
LINE
  5
C53
  8
2-7
 10
2.1545008167988828
 20
2.9415372439032761
 30
0.0
 11
2.1545008167988828
 21
2.9532498427032761
 31
0.0
  0
LINE
  5
C54
  8
2-7
 10
2.012562461797081
 20
2.7039388111032761
 30
0.0
 11
2.012562461797081
 21
2.9415372439032761
 31
0.0
  0
LINE
  5
C55
  8
2-7
 10
1.606826137591675
 20
2.7039388111032761
 30
0.0
 11
1.606826137591675
 21
2.9415372439032761
 31
0.0
  0
LINE
  5
C56
  8
2-7
 10
1.7420715789934771
 20
2.7039388111032761
 30
0.0
 11
1.7420715789934771
 21
2.9415372439032761
 31
0.0
  0
LINE
  5
C57
  8
2-7
 10
1.6001332239916759
 20
2.9415372439032761
 30
0.0
 11
1.6001332239916759
 21
2.9532498427032761
 31
0.0
  0
LINE
  5
C58
  8
2-7
 10
1.0131437643952801
 20
2.9532498427032752
 30
0.0
 11
1.0131437643952801
 21
3.7501002619032762
 31
0.0
  0
LINE
  5
C81
  8
ADAPTER
 10
0.7651122603952804
 20
7.3233287227032777
 30
0.0
 11
0.7651122603952806
 21
7.7233287355032756
 31
0.0
  0
LINE
  5
C82
  8
ADAPTER
 10
4.7021202603952821
 20
7.3233287227032777
 30
0.0
 11
4.7021202603952821
 21
7.7233287355032791
 31
0.0
  0
LINE
  5
D1C
  8
DRIVE_TANG
  6
HIDDEN
 10
2.5367658603952812
 20
7.8189980299032769
 30
0.0
 11
2.5367658603952812
 21
7.4020688827032757
 31
0.0
  0
LINE
  5
D1D
  8
DRIVE_TANG
  6
HIDDEN
 10
2.5367658603952812
 20
7.4020688827032757
 30
0.0
 11
2.9304666603952811
 21
7.4020688827032757
 31
0.0
  0
LINE
  5
D1E
  8
DRIVE_TANG
  6
HIDDEN
 10
2.9304666603952811
 20
7.4020688827032757
 30
0.0
 11
2.9304666603952811
 21
7.8189980299032751
 31
0.0
  0
LINE
  5
D1F
  8
DRIVE_TANG
  6
HIDDEN
 10
2.9304666603952811
 20
7.8189980299032751
 30
0.0
 11
3.2761359627952809
 21
7.8189980299032769
 31
0.0
  0
ARC
  5
DD9
  8
ADAPTER
  6
HIDDEN
 10
2.7336162603952809
 20
-0.7934701393792181
 30
0.0
 40
1.460629967999999
 50
129.80800625111209
 51
230.19199374888771
  0
ARC
  5
DDC
  8
ADAPTER
  6
HIDDEN
 10
2.7336162603952809
 20
-0.7934701393792181
 30
0.0
 40
1.460629967999999
 50
309.8080062511122
 51
50.191993748887789
  0
LINE
  5
DDD
  8
ADAPTER
  6
HIDDEN
 10
4.6328289195952808
 20
0.0037739806207817
 30
0.0
 11
3.844500637391572
 21
0.3285771406207818
 31
0.0
  0
LINE
  5
DDF
  8
ADAPTER
 10
3.8445006373915751
 20
-1.9155174193792179
 30
0.0
 11
3.2900399623952459
 21
-2.143963592629671
 31
0.0
  0
ARC
  5
DE0
  8
ADAPTER
 10
2.7336162603952809
 20
-0.7934701393792181
 30
0.0
 40
1.460629967999999
 50
230.19199374888771
 51
309.8080062511122
  0
LINE
  5
DE5
  8
ADAPTER
  6
HIDDEN
 10
4.067616194091336
 20
-1.6497693793792181
 30
0.0
 11
4.067616194091336
 21
-1.895687817853154
 31
0.0
  0
LINE
  5
DE6
  8
ADAPTER
  6
HIDDEN
 10
4.2039981427153084
 20
-1.649769379379219
 30
0.0
 11
4.2039981427153084
 21
-1.8956878178531571
 31
0.0
  0
LINE
  5
DE7
  8
ADAPTER
  6
HIDDEN
 10
4.4767620399632531
 20
-1.649769379379219
 30
0.0
 11
4.4767620399632531
 21
-1.8956878178531591
 31
0.0
  0
LINE
  5
DE8
  8
ADAPTER
  6
HIDDEN
 10
4.6131439885872254
 20
-1.6497693793792181
 30
0.0
 11
4.6131439885872254
 21
-1.895687817853154
 31
0.0
  0
LINE
  5
DE9
  8
ADAPTER
  6
HIDDEN
 10
4.0184010243043602
 20
-1.843867833198445
 30
0.0
 11
3.8445006373915751
 21
-1.9155174193792179
 31
0.0
  0
ARC
  5
DEA
  8
ADAPTER
 10
4.5449530142752357
 20
-1.8493070802738489
 30
0.0
 40
0.0824692778919425
 50
214.22194995232161
 51
325.7780500476789
  0
ARC
  5
DEB
  8
ADAPTER
 10
4.1358071684033231
 20
-1.8493070802738489
 30
0.0
 40
0.0824692778919425
 50
214.2219499523211
 51
325.77805004767828
  0
ARC
  5
DEC
  8
ADAPTER
 10
4.340380091339286
 20
-1.65603205706697
 30
0.0
 40
0.2757443010988207
 50
240.356905410038
 51
299.6430945899599
  0
LINE
  5
DED
  8
ADAPTER
 10
4.1358071684033231
 20
-1.931776358165791
 30
0.0
 11
4.5449530142752383
 21
-1.931776358165791
 31
0.0
  0
LINE
  5
DEE
  8
ADAPTER
  6
HIDDEN
 10
4.0479311540913372
 20
-1.6497693793792181
 30
0.0
 11
4.6328290285872242
 21
-1.6497693793792181
 31
0.0
  0
LINE
  5
DEF
  8
ADAPTER
  6
HIDDEN
 10
4.6328289195952808
 20
-1.5907142593792181
 30
0.0
 11
4.0184010243043602
 21
-1.5907142593792181
 31
0.0
  0
LINE
  5
DF2
  8
ADAPTER
  6
HIDDEN
 10
4.0479311540913372
 20
-1.6497693793792181
 30
0.0
 11
4.0479311540913372
 21
-1.5907142593792181
 31
0.0
  0
LINE
  5
DF3
  8
ADAPTER
  6
HIDDEN
 10
4.0184010243043602
 20
-1.5907142593792181
 30
0.0
 11
4.0184010243043602
 21
-1.843867833198445
 31
0.0
  0
LINE
  5
DF4
  8
ADAPTER
  6
HIDDEN
 10
4.6328289195952808
 20
0.0037739806207817
 30
0.0
 11
4.6328289195952808
 21
-1.5907142593792181
 31
0.0
  0
LINE
  5
DF5
  8
ADAPTER
  6
HIDDEN
 10
4.6328290285872242
 20
-1.6497693793792181
 30
0.0
 11
4.6328290285872242
 21
-1.5907142593792181
 31
0.0
  0
LINE
  5
DF6
  8
ADAPTER
 10
3.844500637391572
 20
0.3285771406207818
 30
0.0
 11
3.2900399623952459
 21
0.5570233138712358
 31
0.0
  0
ARC
  5
DF7
  8
ADAPTER
 10
2.7336162603952809
 20
-0.7934701393792181
 30
0.0
 40
1.460629967999999
 50
50.191993748887789
 51
129.80800625111209
  0
TEXT
  5
DF8
  8
0
 10
-0.8110761353166253
 20
0.9672872706636682
 30
0.0
 40
0.125
  1
THE ADAPTER SHOWN IN THIS DRAWING IS ONLY TO ILLUSTRATE A TYPICAL ADAPTER
  7
ARIAL
  0
LINE
  5
E7F
  8
ADAPTER
  6
HIDDEN
 10
1.618116260395281
 20
10.06348629070327
 30
0.0
 11
1.618116260395281
 21
8.1884862907032758
 31
0.0
  0
LINE
  5
E81
  8
ADAPTER
  6
HIDDEN
 10
1.743116260395281
 20
8.1884862907032758
 30
0.0
 11
1.743116260395281
 21
7.4029955978043338
 31
0.0
  0
LINE
  5
E82
  8
ADAPTER
  6
HIDDEN
 10
3.7241162603952822
 20
8.1884862907032758
 30
0.0
 11
3.7241162603952822
 21
7.4029955978043329
 31
0.0
  0
LINE
  5
E83
  8
ADAPTER
  6
HIDDEN
 10
3.8491162603952822
 20
10.06348629070327
 30
0.0
 11
3.8491162603952822
 21
8.1884862907032758
 31
0.0
  0
LINE
  5
E84
  8
ADAPTER
  6
HIDDEN
 10
3.8491162603952822
 20
8.1884862907032758
 30
0.0
 11
1.618116260395281
 21
8.1884862907032758
 31
0.0
  0
CIRCLE
  5
E85
  8
ADAPTER
  6
HIDDEN
 10
2.7336162603952809
 20
-0.7934701393792185
 30
0.0
 40
1.1154999999999999
  0
CIRCLE
  5
E86
  8
ADAPTER
  6
HIDDEN
 10
2.7336162603952809
 20
-0.7934701393792185
 30
0.0
 40
1.006219572934834
  0
LINE
  5
EE3
  8
2-7
  6
HIDDEN
 10
3.8162934603952809
 20
7.2052184827032759
 30
0.0
 11
1.65093906039528
 21
7.2052184827032759
 31
0.0
  0
LINE
  5
EE4
  8
2-7
  6
HIDDEN
 10
1.65093906039528
 20
7.2052184827032759
 30
0.0
 11
1.65093906039528
 21
7.323328722703276
 31
0.0
  0
LINE
  5
EE9
  8
2-7
  6
HIDDEN
 10
3.8162934603952809
 20
7.2052184827032759
 30
0.0
 11
3.8162934603952809
 21
7.323328722703276
 31
0.0
  0
LINE
  5
EED
  8
ADAPTER
  6
HIDDEN
 10
1.65093906039528
 20
7.323328722703276
 30
0.0
 11
1.65093906039528
 21
7.2052184827032759
 31
0.0
  0
LINE
  5
EEE
  8
ADAPTER
  6
HIDDEN
 10
1.65093906039528
 20
7.2052184827032759
 30
0.0
 11
3.8162934603952809
 21
7.2052184827032759
 31
0.0
  0
LINE
  5
EEF
  8
ADAPTER
  6
HIDDEN
 10
3.8162934603952809
 20
7.2052184827032759
 30
0.0
 11
3.8162934603952809
 21
7.323328722703276
 31
0.0
  0
CIRCLE
  5
EF0
  8
2-7
  6
HIDDEN
 10
2.7336162603952809
 20
-0.7934701393792177
 30
0.0
 40
1.0826772
  0
LINE
  5
EF3
  8
ADAPTER
  6
HIDDEN
 10
1.743116260395281
 20
7.4029955978043338
 30
0.0
 11
3.7241162603952822
 21
7.4029955978043329
 31
0.0
  0
LINE
  5
EF5
  8
ADAPTER
  6
HIDDEN
 10
2.1086162603952809
 20
7.2052184827032759
 30
0.0
 11
2.1086162603952809
 21
7.4029955978043338
 31
0.0
  0
LINE
  5
EF6
  8
ADAPTER
  6
HIDDEN
 10
3.3586162603952809
 20
7.2052184827032759
 30
0.0
 11
3.3586162603952809
 21
7.4029955978043338
 31
0.0
  0
CIRCLE
  5
EF7
  8
ADAPTER
  6
HIDDEN
 10
2.7336162603952809
 20
-0.7934701393792185
 30
0.0
 40
0.625
  0
ENDSEC
  0
EOF
